Therapy All Time Low

Ver o tópico anterior Ver o tópico seguinte Ir em baixo

Therapy All Time Low

Mensagem  EarthtoJohn em Sex Set 07, 2012 9:50 pm

(intro)

A D F#m E D
|------------------|------------------|-------------------|-------------------|
|-----2h3-2----0---|-----2h3-2----0---|-----2---------2---|-----2h3-2----0----|
|---2--------2---2-|---2--------2---2-|---2---2-----2---2-|---2--------2---2--|
|------------------|-0----------------|-------------------|-0-----------------|
|-0----------------|------------------|-0-----------------|-------------------|
|------------------|------------------|-----------2-------|-------------------|


(verso)
A D
My ship went down in a sea of sound
F#m E D
When I woke up alone I had everything
A D
A handful of moments I wished I could change
F#m E D
And a tongue like a nightmare that cut like a blade
A D
In a city of fools I was careful and cool
F#m E D
But they tore me apart like a hurricane
A
A handful of moments
D F#m E D
I wish I could change but I was carried away

(refrão)
A
Give me therapy
E F#m
I'm a walking travesty
D
But I'm smiling at everything
A E F#m
Therapy, you were never a friend to me
D
And you can keep all your misery.


A D F#m E D
|-----------------|-----------------|-------------------|------------------|
|-----2h3-2---0---|-----2h3-2---0---|-----2---------2---|-----2h3-2---0----|
|---2-----------2-|---2-----------2-|---2---2-----2---2-|---2-----------2--|
|-----------------|-0---------------|-------------------|-0----------------|
|-0---------------|-----------------|-------------------|------------------|
|-----------------|-----------------|-4---------2-------|------------------|


(verso)
A
My lungs gave out
D
As i faced the crowd
F#m E D
I think that keeping this up could be dangerous
A
I'm flesh and bone
D
I'm a rolling stone
F#m E D
and the experts say I'm delirious

(refrão)

(ponte)
Bm A
Arrogant boy, love yourself so no one has to
E
They're better off without you
E4 E
(They're better off without you)
Bm A
Arrogant boy, cause a scene like you're supposed to
F#m
They'll fall asleep without you
D A
You're lucky if your memory remains

(refrão)

(abafado)
A
Give me therapy
E F#m
I'm a walking travesty
D
But I'm smiling at everything

(normal)
A E F#m
Therapy, you were never a friend to me
D
And you can take back your misery
A
Therapy
E F#m
I'm a walking travesty
D
But I'm smiling at everything
A E F#m
Therapy, you were never a friend to me
D
And you can choke on your misery.


A D F#m E D C9
|-----------------|-----------------|---------------------0- |
|-----2h3-2---0---|-----2h3-2---0---|-----2---------2-----3- |
|---2-----------2-|---2-----------2-|---2---2-----2---2---2- |
|-----------------|-0---------------|---------------------0- |
|-0---------------|-----------------|-0--------------------- |
|-----------------|-----------------|-----------2----------- |

EarthtoJohn
Administrador/a
Administrador/a

Mensagens : 88
Data de inscrição : 17/06/2011
Localização : Via Láctea

Ver perfil do usuário http://alltimelowportugal.forumeiros.net

Voltar ao Topo Ir em baixo

Ver o tópico anterior Ver o tópico seguinte Voltar ao Topo

- Tópicos similares

 
Permissão deste fórum:
Você não pode responder aos tópicos neste fórum